Szklana pogoda (tab)

Klawisze (intro):

E -------------
B ----8---8----
G ---7-5----7-5
D -5-------5-5-
A -------------
E ----------XXX

Gitara to co gramy (szybko) w miejscu XXX ma sie ładnie zgrywać:

E -------------
B -------------
G -7---5-------
D -7-5-5-------
A -5-5-3-------
E ---3---------


Cała wzrotka naparzać w kołko (tłumione):

E ------------
B ------------
G ----5-------
D --5-5-------
A --5-3-------
E --3---------


telewizor z prognozą pogody... tu mi sie wena skoczyła

E ------------
B ------------
G --7-9-10----
D --7-9-10----
A --5-7-8-----
E ------------


Szklana pogoda...
!!!!!!
tu jest dziura może ktoś ogarnie co gitarzysta tam wyrabia. 
Ja nie słysze co tam robi ;)
!!!!!!

E ---------------
B ---------------
G ---------------
D --5-3-2-0-2-3-0
A ---------------
E ---------------